lamb of god style song

(/) Slide Up  (\) Slide Down  (h) Hammer On  (p) Pull Off  (b) Bend (r) Release (v) Vibrato
E|-----------------------------------------------------------------------------
B|-----------------------------------------------------------------------------
G|-----------------------------------------------------------------------------
D|-----------------9-----9-7-6-----7-5-4-----------------9---------5---------4-
A|-----8-7-----7-8---------------------------8-7-----7-8-------7-6-------7-5---
E|-0-0-----0-0-------0-0-------0-0-------0-0-----0-0-------0-0-------0-0-------



E|------------------------------------------------------------------------
B|------------------------------------------------------------------------
G|------------------------------------------------------------------------
D|-----------------9-----------------10-----------------9-----------------
A|-----8-7-----7-8-------8-7-----7-8--------8-7-----7-8-----------5-----4-
E|-0-0-----0-0-------0-0-----0-0--------0-0-----0-0-------0-0-7-6---7-5---
http://www.guitartabcreator.com
Guitar Tab Creator is intended to store guitar tab created through the tool. It currently does not support in-line text editing. Any text you place in here will be lost. If you need to comment on your tab, please use the "Tab Notes" section located below.