Dark Entries : Bass Tab

(/) Slide Up  (\) Slide Down  (h) Hammer On  (p) Pull Off  (b) Bend (r) Release (v) Vibrato
E|----------------------------------------------------------------------------
B|----------------------------------------------------------------------------
G|----------------------------------------------------------------------------
D|---------14--11--------------13--10--------------12--9------------10--9--7--
A|--12/12----------12--11--11----------11--10--10---------10--9--9------------
E|----------------------------------------------------------------------------



E|--------------------------------------------------------------------------------------------------
B|--------------------------------------------------------------------------------------------------
G|--------------------------------------------------------------------------------------------------
D|--------------------------------------------------------------------------------------------------
A|--------------------------------------------------------------------------------------------------
E|--5--5--5--5--5--5--5--5--4--4--4--4--4--4--4--4--7--7--7--7--7--7--7--7--2--2--2--2--2--2--2--2--



E|--------------------------------------------------------------------------------------------------
B|--------------------------------------------------------------------------------------------------
G|--------------------------------------------------------------------------------------------------
D|--------------------------------------------------------------------------------------------------
A|--------------------------------------------------------------------------------------------------
E|--5--5--5--5--5--5--5--5--4--4--4--4--4--4--4--4--3--3--3--3--3--3--3--3--2--2--2--2--2--2--2--2--



E|-----------------------------------------
B|-----------------------------------------
G|-----------------------------------------
D|-----------------------------------------
A|--7--7--7--7--7--7--7--7--7--7--7--7--7--
E|--0--------------------------------------



E|--------------------------------------------------------------------------------
B|--------------------------------------------------------------------------------
G|--------------------------------------------------------------------------------
D|--------------------------------------------------------------------------------
A|--------4--7--4-----------------------------------------------------------------
E|--5--5-----------5--4--4--4--4--4--4--0--3--3--3--3--3--3--0--2--2--2--2--2--2--



E|--------------------------------------------------------------------------
B|--------------------------------------------------------------------------
G|--------------------------------------------------------------------------
D|--------------------------------------------------------------------------
A|--------4--7--4-----------------------------------------------------------
E|--5--5-----------5--4--4--4--4--4--4--7--7--7--7--7--7--2--2--2--2--2--2--



E|--------------------------------------------
B|--------------------------------------------
G|--------------------------------------------
D|--------------------------------------------
A|--------------------------------------------
E|--0--2--2--2--2--2--2--0--2--2--2--2--2--2--
http://www.guitartabcreator.com
Guitar Tab Creator is intended to store guitar tab created through the tool. It currently does not support in-line text editing. Any text you place in here will be lost. If you need to comment on your tab, please use the "Tab Notes" section located below.