Mr Understanding

(/) Slide Up  (\) Slide Down  (h) Hammer On  (p) Pull Off  (b) Bend (r) Release (v) Vibrato


E|-----------------------|--------------------------|--
B|-----------------------|--------------------------|--
G|-----------------------|--------------------------|--
D|-----------------------|--------------------------|--
A|--0--2--4--4--4--4--4--|--9--9--9--9--7--7--5--5--|--
E|-----------------------|--------------------------|--



E|-----------------------|-----
B|-----------------------|-----
G|--2--2--2--2--2--2--2--|-----
D|--2--2--2--2--2--2--2--|-----
A|--0--0--0--0--0--0--0--|-----
E|-----------------------|-----



E|------------------------|---------------|---------------------------|---------------|--
B|------------------------|---------------|---------------------------|---------------|--
G|--9--10--11--9----------|---------------|---------------------------|---------------|--
D|----------------11--10--|--9--7--9--11--|--11--11--12--11--9--7--6--|--7--9--7--11--|--
A|------------------------|---------------|---------------------------|---------------|--
E|------------------------|---------------|---------------------------|---------------|--



E|--------------------------|------------------------------|--
B|--------------------------|------------------------------|--
G|--2--2--2--2--6--6--6--6--|--11--11--11--11--7--7--7--7--|--
D|--2--2--2--2--6--6--6--6--|--11--11--11--11--7--7--7--7--|--
A|--0--0--0--0--4--4--4--4--|--9---9---9---9---5--5--5--5--|--
E|--------------------------|------------------------------|--



E|--------------------------|--------------------------|------------------------|--
B|--------------------------|--------------------------|------------------------|--
G|--------9--9------11--11--|------14--14------11--11--|------14--14------9--9--|--
D|--------9--9------11--11--|------14--14------11--11--|------14--14------9--9--|--
A|--------7--7------9---9---|------12--12------9---9---|------12--12------7--7--|--
E|--------------------------|--------------------------|------------------------|--



E|--------------------|--
B|--------------------|--
G|------11--11--------|--
D|------11--11--------|--
A|------9---9---------|--
E|--------------------|--



E|-------------------------|------------------------------|--------------------------|--
B|-------------------------|------------------------------|--------------------------|--
G|--6--6--6--6--6--6--6--6/|--11--11--11--11--9--9--9--9--|--6--6--6--6--6--6--6--6--|--
D|-------------------------|------------------------------|--------------------------|--
A|-------------------------|------------------------------|--------------------------|--
E|-------------------------|------------------------------|--------------------------|--



E|----------------------------------|--
B|----------------------------------|--
G|--14--14--14--14--13--13--13--13--|--
D|----------------------------------|--
A|----------------------------------|--
E|----------------------------------|--
http://www.guitartabcreator.com
Guitar Tab Creator is intended to store guitar tab created through the tool. It currently does not support in-line text editing. Any text you place in here will be lost. If you need to comment on your tab, please use the "Tab Notes" section located below.