Sweep

(/) Slide Up  (\) Slide Down  (h) Hammer On  (p) Pull Off  (b) Bend (r) Release (v) Vibrato


E|------------------------------------------------------------------------------------------
B|------------------------------------------------------------------------------------------
G|-------------9--------------------9--------------------9--------------------9-------------
D|----------9-----9--------------9-----9--------------9-----9--------------9-----9----------
A|------10-----------10------10-----------10------10-----------10------10-----------10------
E|--12-------------------12-------------------12-------------------12-------------------12--



E|--------------------------------------------8--------------------8-12-8------------
B|---------10--------------10--------------10---10--------------10--------10---------
G|-------9----9----------9----9----------9---------9----------9--------------9-------
D|----10--------10----10--------10----10-------------10----10------------------10----
A|-12--------------12--------------12-------------------12------------------------12-
E|-----------------------------------------------------------------------------------



E|------------8-12-8--------------------7-12-7---------------------7-12-7------------
B|---------10--------10--------------10--------9-----------------9--------9----------
G|-------9--------------9----------9-------------9-------------9------------9--------
D|----10------------------10----10-----------------9---------9----------------9------
A|-12------------------------12----------------------11-7-11--------------------11-7-
E|-----------------------------------------------------------------------------------



E|----------------------------8-12-8--------------------8-12-8--------------------8-12-8---------------
B|---------10--------------10--------10--------------10--------10--------------10--------10-9----------
G|-------9----9----------9--------------9----------9--------------9----------9----------------10-9-7-9-
D|----10--------10----10------------------10----10------------------10----10---------------------------
A|-12--------------12------------------------12------------------------12------------------------------
E|-----------------------------------------------------------------------------------------------------



E|-------------------------------------------10-13-10-12-
B|--------------------------------------9-12-------------
G|-7-9-10-7----------------------------------------------
D|----------9-6---------------------6-9------------------
A|--------------8-5-------------5-8----------------------
E|------------------7-4-1-4-4-7--------------------------
http://www.guitartabcreator.com
Guitar Tab Creator is intended to store guitar tab created through the tool. It currently does not support in-line text editing. Any text you place in here will be lost. If you need to comment on your tab, please use the "Tab Notes" section located below.