Jato Unit.

(/) Slide Up  (\) Slide Down  (h) Hammer On  (p) Pull Off  (b) Bend (r) Release (v) Vibrato
E|-12-7-------7-12-7-------7-12-11-8---------8-11-8---------8-11-10-7-------7-10-7-------7-10-
B|------8---8--------8---8-----------10---10--------10---10-----------8---8--------8---8------
G|--------9------------9----------------8--------------8----------------7------------7--------
D|--------------------------------------------------------------------------------------------
A|--------------------------------------------------------------------------------------------
E|--------------------------------------------------------------------------------------------



E|-9-6-------6-9-6-------6-9-10-5-------5-10-5-------5-10-9-6-------6-9-6-------6-9-
B|-----8---8-------8---8----------6---6--------6---6----------8---8-------8---8-----
G|-------6-----------6--------------7------------7--------------6-----------6-------
D|----------------------------------------------------------------------------------
A|----------------------------------------------------------------------------------
E|----------------------------------------------------------------------------------



E|-8-5-------5-8-5-------5-8-5-4-------4-7-4-------4-7-8-3-------------------3-8-3-----------
B|-----6---6-------6---6---------6---6-------6---6---------5---------------5-------5---------
G|-------5-----------5-------------4-----------4-------------5-----------5-----------5-------
D|-------------------------------------------------------------5-------5---------------5-----
A|---------------------------------------------------------------7-3-7-------------------7-3-
E|-------------------------------------------------------------------------------------------
http://www.guitartabcreator.com
Guitar Tab Creator is intended to store guitar tab created through the tool. It currently does not support in-line text editing. Any text you place in here will be lost. If you need to comment on your tab, please use the "Tab Notes" section located below.