Digesting the Lamb - Riff 4

(/) Slide Up  (\) Slide Down  (h) Hammer On  (p) Pull Off  (b) Bend (r) Release (v) Vibrato

4/4 sweep...........................
E|------------------------|-13h17p13----------13h16p13-------
B|-10-9-------------------|----------15----15----------15----
G|------10-9--------------|-------------14----------------13-
D|-----------12-11--------|----------------------------------
A|-----------------13-12--|----------------------------------
E|------------------------|----------------------------------


4/4 sweep..............................
E|-------------------|-12h15p12-------------15h18p15-------
B|-------------------|----------14-------17----------17----
G|-------------------|-------------12/15----------------15-
D|-------------------|-------------------------------------
A|-5tr-7tr-8tr-11tr--|-------------------------------------
E|-------------------|-------------------------------------
Digesting the Lamb - Riff 4 http://www.guitartabcreator.com
Guitar Tab Creator is intended to store guitar tab created through the tool. It currently does not support in-line text editing. Any text you place in here will be lost. If you need to comment on your tab, please use the "Tab Notes" section located below.