Digesting the Lamb - Riff 2

(/) Slide Up  (\) Slide Down  (h) Hammer On  (p) Pull Off  (b) Bend (r) Release (v) Vibrato

5/4
D|-----------------------------------------
A|----------------------------------------- x2
F|---------------9h10h12-------------------
C|--------8h9h11------------------11h12h14-
G|-7h8h10----------------10h11h13----------
D|-----------------------------------------


5/4
D|--------------------------------------------
A|--------------------------------------------
F|-----------------10h12h13------------------- x2
C|---------9h11h12-------------------12h14h15-
G|-8h10h11------------------11h13h14----------
D|--------------------------------------------
http://www.guitartabcreator.com
Digesting the Lamb - Riff 2
Guitar Tab Creator is intended to store guitar tab created through the tool. It currently does not support in-line text editing. Any text you place in here will be lost. If you need to comment on your tab, please use the "Tab Notes" section located below.