Out Of Sight

(/) Slide Up  (\) Slide Down  (h) Hammer On  (p) Pull Off  (b) Bend (r) Release (v) Vibrato


E|----------------------------------------------------------------
B|----------------------------------------------------------------
G|----------------------------------------------------------------
D|--------7-7-7-7---------7-7-7-7--------7-7-7-7------------------
A|-5-7----5-------5-7-----5-------5-7----5-----9-5-7----2-4-5-7-9-
E|-3-5------5-7-5-3-5-------5-7-5-3-5------5-7-5-3-5----0-2-3-5-7-



E|--------------------------------------------
B|--------------------------------------------
G|-12-11-9--9-------------12-11-9--9----------
D|------------12-11-12---------------12-11-12-
A|--------------------------------------------
E|--------------------------------------------



E|-----------------------
B|-----3-5-3-------3-5-3-
G|-4-2---------4-2-------
D|-----------------------
A|-----------------------
E|-----------------------



E|------------------------------------------------------------------
B|------------------------------------------------------------------
G|-----------------11-9-11-9-7-9------------------------------------
D|-7-7-7-7--------------------------7-7-7-7-------------------------
A|-5-------5-7-----9--7-9--7-5-7----5-------5--7----2-4-5-7-2-4-5-7-
E|---5-7-5-3-5------------------------5-7-5-3--5----0-2-3-5-0-2-3-5-



E|----------------------------------------------------------
B|----------------------------------------------------------
G|----------------------------------------------------------
D|-5-3-3-----5-10-10------------5-3-3-----5-10-10-----------
A|-3-1-0-5---3-8--9--5-7-3-2----3-1-0-5---3-8--7--5-7-9-10--
E|-------3-----------3-5-1-0----------3-----------3-5-7-8---
http://www.guitartabcreator.com
Guitar Tab Creator is intended to store guitar tab created through the tool. It currently does not support in-line text editing. Any text you place in here will be lost. If you need to comment on your tab, please use the "Tab Notes" section located below.