Carrousel laat je horen

(/) Slide Up  (\) Slide Down  (h) Hammer On  (p) Pull Off  (b) Bend (r) Release (v) Vibrato


E|--------------
B|--------------
G|--------------
D|---5-3----5-3-
A|-3-3-1--3-3-1-
E|-1------1-----



E|-
B|-
G|-
D|-
A|-
E|-



E|------------------
B|------------------
G|-12-10-9---10-9-7-
D|------------------
A|-10-8--7---8--7-5-
E|------------------



E|----------------------------------------------------------------------------------------------
B|---------------------------------10-10-11-11-10-10-------------------------------10-10-11-----
G|---------------------10-10-12-12-------------------12-12-10-10-12-12-10-10-12-12--------------
D|-10--------10---------------------------------------------------------------------------------
A|-8--10-8---8--10-8----------------------------------------------------------------------------
E|----8--6------8--6----------------------------------------------------------------------------
http://www.guitartabcreator.com
Guitar Tab Creator is intended to store guitar tab created through the tool. It currently does not support in-line text editing. Any text you place in here will be lost. If you need to comment on your tab, please use the "Tab Notes" section located below.