BREATING

(/) Slide Up  (\) Slide Down  (h) Hammer On  (p) Pull Off  (b) Bend (r) Release (v) Vibrato


E|-----4-
B|-5-----
G|---4---
D|-------
A|-------
E|-------



E|-----------------------
B|-----------------------
G|-4-4-4---4-4-4---4-4-4-
D|-2-2-----2-2-----2-2-2-
A|-0-4-2---0-4-2---0---0-
E|-------------------4---



E|-------------------------------------------
B|------------------------------9-10-12-10-9-
G|-8-9-11---13-11-9----8-9-11---9-9--9--9--9-
D|-------------------------------------------
A|-6-7-9----11-9--7----6-7-9-----------------
E|-------------------------------------------



E|-0-0-0-0--------
B|-0-0-0-0--------
G|-6-2-4-3--------
D|-6-2-4-4--2-----
A|-4-0-2-4--0-2-4-
E|-------2----0-2-
http://www.guitartabcreator.com
Guitar Tab Creator is intended to store guitar tab created through the tool. It currently does not support in-line text editing. Any text you place in here will be lost. If you need to comment on your tab, please use the "Tab Notes" section located below.