bagging for answers

(/) Slide Up  (\) Slide Down  (h) Hammer On  (p) Pull Off  (b) Bend (r) Release (v) Vibrato
E|--------------------------------------------
B|--------------------------------------------
G|--------------------------------------------
D|----11-11------11-11-------11-11------11-11-
A|-11-8--9----11-8--9-----11-8--9----11-8--9--
E|-9----------9-----------9----------9--------



E|-------------------------------------------
B|-------------------------------------------
G|-10-13-11---10-6-3------10-13-11---10-6-3--
D|-------------------------------------------
A|-8--11-9----8--4-1------8--11-9----8--4-1--
E|-------------------------------------------



E|------------------
B|------------------
G|------------------
D|----------------4-
A|-6-8-4---6-8-4--2-
E|-4-6-2---4-6-2----
http://www.guitartabcreator.com
Guitar Tab Creator is intended to store guitar tab created through the tool. It currently does not support in-line text editing. Any text you place in here will be lost. If you need to comment on your tab, please use the "Tab Notes" section located below.