Escala Do M

(/) Slide Up  (\) Slide Down  (h) Hammer On  (p) Pull Off  (b) Bend (r) Release (v) Vibrato

Stave 1:

E|-------------------------------------------------------
B|-------------------------------------------------------
G|--------------------4--5-------------------------------
D|-----------3--5--7------------------------------9--10--
A|--3--5--7----------------------------8--10--12---------
E|--------------------------8--10--12--------------------

Stave 2:

E|----------------------------------------------------------
B|--------------------------------------------------12--13--
G|-----------------------5--------------10--12--14----------
D|--------------5--7--9-----10--12--14----------------------
A|-----5--7--8----------------------------------------------
E|--8-------------------------------------------------------

Stave 3:

E|--
B|--
G|--
D|--
A|--
E|--

http://www.guitartabcreator.com
Guitar Tab Creator is intended to store guitar tab created through the tool. It currently does not support in-line text editing. Any text you place in here will be lost. If you need to comment on your tab, please use the "Tab Notes" section located below.