Escala de Sol M

(/) Slide Up  (\) Slide Down  (h) Hammer On  (p) Pull Off  (b) Bend (r) Release (v) Vibrato

Stave 1:

E|--------------------------------------0--2--3----------------------------
B|-----------------------------0--1--3-------------------------------7--8--
G|-----------------------0--2----------------------------------7--9--------
D|--------------0--2--4------------------------------7--9--10--------------
A|-----0--2--3-----------------------------------10------------------------
E|--3----------------------------------------------------------------------

Stave 2:

E|-----------------------------------------------------------------------------------------------12--14--15--
B|--------------------------------------5--7--8--------------------------------------12--13--15--------------
G|-----------------------------4--5--7-----------------------------------11--12--14--------------------------
D|--------------------4--5--7--------------------------------10--12--14--------------------------------------
A|-----------3--5--7-----------------------------10--12--14--------------------------------------------------
E|--3--5--7--------------------------------------------------------------------------------------------------

Stave 3:

E|--
B|--
G|--
D|--
A|--
E|--

http://www.guitartabcreator.com
Guitar Tab Creator is intended to store guitar tab created through the tool. It currently does not support in-line text editing. Any text you place in here will be lost. If you need to comment on your tab, please use the "Tab Notes" section located below.