Rock & Roll Bassline

(/) Slide Up  (\) Slide Down  (h) Hammer On  (p) Pull Off  (b) Bend (r) Release (v) Vibrato

E|--------------------------------------------------------------------------------------------------
B|--------------------------------------------------------------------------------------------------
G|--------------------------------------------------------------2-----------------------------------
D|--------------2-----------------------------------------2--4-----4--2-----------------------------
A|--------2--4-----4--2-----------2--4--5--4--2-----0--4-----------------4--------2--4--5--4--2-----
E|--0--4-----------------4--0--4-----------------4--------------------------0--4-----------------4--



E|--------------------------------------------
B|--------------------------------------------
G|--------------------------------------------
D|-----1--4--1--------2-----------------4--4--
A|--2-----------0--4-----4--------2-----2--2--
E|--------------------------0--4-----4--------
http://www.guitartabcreator.com
Guitar Tab Creator is intended to store guitar tab created through the tool. It currently does not support in-line text editing. Any text you place in here will be lost. If you need to comment on your tab, please use the "Tab Notes" section located below.