Gandalf

Gandalf

E|-----0-----------0-----------2-----------2-----------0-----------0-----------2-----------2--------
B|--------1-----------1-----------1-----------1-----------1-----------1-----------1-----------1-----
G|-----------2-----------2-----------2-----------2-----------2-----------2-----------2-----------2--
D|--2-----------2-----------0-----------0-----------2-----------2-----------0-----------0-----------
A|--------------------------------------------------------------------------------------------------
E|--------------------------------------------------------------------------------------------------



E|-----0-----------0--------------2-----------0--------|--
B|--------1-----------1--------------0-----------0-----|--
G|-----------2-----------2--------------2-----------2--|--
D|--3-----------3--------------2-----------2-----------|--
A|--------------------------0--------------------------|--
E|-----------------------------------------------------|--
http://www.guitartabcreator.com
Guitar Tab Creator is intended to store guitar tab created through the tool. It currently does not support in-line text editing. Any text you place in here will be lost. If you need to comment on your tab, please use the "Tab Notes" section located below.