canon rock

(/) Slide Up  (\) Slide Down  (h) Hammer On  (p) Pull Off  (b) Bend (r) Release (v) Vibrato

E|--14--12--10--9--------------9----------14------15--14h15p14---------------------
B|-----------------12--10--12-----15--17------17----------------17--15--17p15--14--
G|---------------------------------------------------------------------------------
D|---------------------------------------------------------------------------------
A|---------------------------------------------------------------------------------
E|---------------------------------------------------------------------------------



E|--14--17--19--15--14h15p14------15--14----------------------------------------------
B|----------------------------17----------17h19p17--15--14--------------------15--14--
G|----------------------------------------------------------16--14h16p14--12----------
D|------------------------------------------------------------------------------------
A|------------------------------------------------------------------------------------
E|------------------------------------------------------------------------------------



E|------------------------------------------------------------------------------------------
B|-----------8p7-------------------------------------------------------------8--7--5--------
G|--7--7--7-------7--7-----------6h7-----------------------------4--7--7--7-----------7-----
D|--7--7--7-------7--7--7--7--7-------7--4--4--4--2--4--5--5--5--5--7--7--7-----------------
A|--5--5--5-------5--5--7--7--7-------7--4--4--4--2--4--5--5--5-----5--5--5-----------------
E|----------------------5--5--5-------5--2--2--2--------3--3--3-----------------------------



E|-----------------------------------------
B|-----------4--6--7--6--------------5-----
G|-----------------------------6--7-----6--
D|--5--5--5-----------7--7--7--------------
A|--5--5--5-----------7--7--7--------------
E|--3--3--3-----------5--5--5--------------



E|-------------------------------
B|--0/19--0/17--0/15--15b15--14--
G|-------------------------------
D|-------------------------------
A|-------------------------------
E|-------------------------------
http://www.guitartabcreator.com
Guitar Tab Creator is intended to store guitar tab created through the tool. It currently does not support in-line text editing. Any text you place in here will be lost. If you need to comment on your tab, please use the "Tab Notes" section located below.