Chased

(/) Slide Up  (\) Slide Down  (h) Hammer On  (p) Pull Off  (b) Bend (r) Release (v) Vibrato
E|--------------------------------------------------
B|--------------------------------------------------
G|--------------------------------------------------
D|--------------------------------------------------
A|--------5-----7-----5-----------5--4--------7--4--
E|--7--7-----7-----7-----7--3--3--------5--5--------



E|--2--3--5--
B|--3--3--5--
G|--4--0--0--
D|--4--0--0--
A|--2--2--4--
E|--x--3--5--



E|--x----x--x--x------x--x--
B|--7-------x--x------x--x--
G|--7-------6--4------4--6--
D|--7-------0--0------0--0--
A|--5-------4--2------2--4--
E|--x----x--5--3------3--5--



E|--2----0----3--------3--0--
B|--3----2----3--------3--2--
G|--2----2----0--------0--2--
D|--0----2----0--------0--2--
A|--x----0----2--------2--0--
E|--x----x----3--------3--x--



E|-----------------------------------------------------------------------
B|-----------------------------------------------------------------------
G|-----------------------------------------------------------------------
D|-----4---5-4-----------------------------------------------------------
A|-5-5---5-----7-5-----4---5---4-------5---4-5-4-------5-------5-4-------
E|-----------------5-5---5---5---5-3-3---3-------5-3-3---3-5-5-----------



E|--------------
B|--------------
G|--7-----------
D|--7--7--9--5--
A|--5--7--9--5--
E|-----5--7--3--
http://www.guitartabcreator.com
Guitar Tab Creator is intended to store guitar tab created through the tool. It currently does not support in-line text editing. Any text you place in here will be lost. If you need to comment on your tab, please use the "Tab Notes" section located below.