Demo

(/) Slide Up  (\) Slide Down  (h) Hammer On  (p) Pull Off  (b) Bend (r) Release (v) Vibrato


B |--12131415------------|----------------------------|
E |-----------15141312---|----------------------------|
A |----------------------|----------------------------|
D |----------------------|-----3---3---3---3---2-2-2-3|
F#|----------------------|-----2---2---2---2---2-2-2-3|
B |----------------------|-----2---2---2---2---2020203|
Pm******* |
^v^v^vv|

|----------------------------------|
|----------------------------------|
|----------------------------------|
|----------------------------------|
|1--1--1--1--1--0--1--1--1--1--1--0|
|1--1--1--1--1--0--1--1--1--1--1--0|
Pm**************** ***************


|----------------------------------|
|----------------------------------|
|----------------------------------|
|----------------------------------|
|1--1--1--1--1--0--1--1--1--1--1--0|
|1--1--1--1--1--0--1--1--1--1--1--0|
Pm**************** ***************


|----------------------------------|
|----------------------------------|
|----------------------------------|
|----------------------------------|
|1--1--1--1--1--0--1--1--1--1--1--0|
|1--1--1--1--1--0--1--1--1--1--1--0|
Pm**************** ***************
Guitar Tab Creator is intended to store guitar tab created through the tool. It currently does not support in-line text editing. Any text you place in here will be lost. If you need to comment on your tab, please use the "Tab Notes" section located below.