Led

(/) Slide Up  (\) Slide Down  (h) Hammer On  (p) Pull Off  (b) Bend (r) Release (v) Vibrato
E|-----------------------------------------------------------------|--------------------
B|-----------------------------------------------------------------|--------------------
G|--------------------1--5--1--3--4--5--3--------------------------|--------------------
D|--1--5-----1--2--3-----------------------5--1--0-----0--1--2--3--|-----3-----3-----3--
A|--------3-----------------------------------------3--------------|--3-----3-----3-----
E|-----------------------------------------------------------------|--------------------



E|-----------------------|--------------|--------------|-----------|-----------------
B|-----------------------|--------------|--------------|-----------|-----------------
G|--1--3--5--3-----------|--------------|--------------|-----------|-----------------
D|--------------5--5-----|-----1--3--5--|--5-----5--6--|--6--5--3--|--1--0-----------
A|--------------------3--|--3-----------|-----5--------|-----------|--------3--3--6--
E|-----------------------|--------------|--------------|-----------|-----------------



E|--------------------|-----------------|--------------|--------------------
B|--------------------|-----------------|--------------|--------------------
G|--------------------|--5--------------|-----3--4--5--|--------------------
D|--------------------|-----1--1--2--3--|--6-----------|-----1--3--5--5-----
A|--5--5--4--4--3--3--|-----------------|--------------|--3-----------------
E|--------------------|-----------------|--------------|--------------------



E|-----------|-----------|-----------|-----------|---------------------
B|-----------|-----------|-----------|-----------|---------------------
G|--3--------|--5--------|-----------|--1--3-----|-----5---------------
D|--------3--|--------3--|-----1--3--|--------3--|--6-------5----------
A|-----3-----|-----3-----|--3--------|-----------|---------------3-----
E|-----------|-----------|-----------|-----------|---------------------



E|--------------|--------|--------|--------------------------------|--------------------
B|--------------|--------|--------|--------------------------------|--------------------
G|-----0--3--5--|--3-----|--------|--------------------------------|--------------------
D|--1-----------|-----5--|--5--6--|--6--5--3--5--3--1--0-----0--1--|--------------------
A|--------------|--------|--------|-----------------------3--------|--5--5--4--4--3--3--
E|--------------|--------|--------|--------------------------------|--------------------



E|-----------------|-----------------|-----------|--------|--------------------------
B|-----------------|-----------------|-----------|--------|--------------------------
G|-----0--3--5-----|-----1--3--5-----|--0--3--5--|--------|--------------1--3--5-----
D|--1--------------|--3-----------3--|-----------|--5-----|--1--3-----3-----------3--
A|--------------3--|-----------------|-----------|-----3--|--------3-----------------
E|-----------------|-----------------|-----------|--------|--------------------------



E|-----------|--------------|--------------|-----------------------------------------
B|-----------|--------------|--------------|-----------------------------------------
G|-----1--5--|--3--1--0-----|--------------|--5--4--3--4--5--3--5--4--3--4--5--3-----
D|--3--------|-----------5--|--3--1--0-----|--------------------------------------5--
A|-----------|--------------|-----------3--|-----------------------------------------
E|-----------|--------------|--------------|-----------------------------------------



E|--------------|-----------------------------|--------------------
B|--------------|-----------------------------|--------------------
G|--------------|-----------------------------|--------------------
D|--5--0--3--5--|--6--5--3--5--3--1--0-----1--|--------------------
A|--------------|-----------------------3-----|--5--5--4--4--3--3--
E|--------------|-----------------------------|--------------------



E|--------------------|--------------|-----------------|--------------|-----------------
B|--------------------|--------------|-----------------|--------------|-----------------
G|-----0--3--5--------|--1--3--5-----|--0--3--5--------|--------0--5--|--5--5-----------
D|--1--------------3--|-----------3--|-----------5-----|-----1--------|-----------------
A|--------------3-----|--------------|--------------3--|--3-----------|--------3--3-----
E|--------------------|--------------|-----------------|--------------|-----------------



E|--------------|--------------------------------------|--------|--------------------------
B|--------------|--------------------------------------|--------|--------------------------
G|--------------|--------------------------------------|-----5--|--3--0--------------------
D|-----1--2--3--|--3--3--3-----3--3-----3--1--3-----3--|--5-----|-----------1--3--4--0-----
A|--3-----------|-----------3--------3-----------3-----|--------|--------3--------------3--
E|--------------|--------------------------------------|--------|--------------------------



E|-----------------------------------------|--------------|-----------------------------
B|-----------------------------------------|--------------|-----------------------------
G|--5--4--3--4--5--3--5--4--3--4--5--3-----|--------------|-----------------------------
D|--------------------------------------5--|--5--0--3--5--|--6--5--3--5--3--1--0-----1--
A|-----------------------------------------|--------------|-----------------------3-----
E|-----------------------------------------|--------------|-----------------------------



E|-----------------|-----|-----|--------------------------|-----------------------
B|-----------------|-----|-----|--------------------------|-----------------------
G|-----------------|-----|-----|--------------------------|-----------------------
D|-----------------|--3--|-----|-----------------------1--|-----------------------
A|--5--5--4--4--3--|-----|--3--|--6--6--5--5--6--5--3-----|--5--5--4--4--3--3-----
E|-----------------|-----|-----|--------------------------|-----------------------



E|-----------------|-----|--------------------------|-----|-----|--------------
B|-----------------|-----|--------------------------|-----|-----|--------------
G|-----0--3--5-----|-----|--------------------1--5--|-----|-----|-----0--3--5--
D|--1--------------|--3--|-----1--3-----1--3--------|-----|-----|--1-----------
A|--------------3--|-----|--3--------3--------------|--3--|--3--|--------------
E|-----------------|-----|--------------------------|-----|-----|--------------



E|--------------|--------------------|-----------------------------------
B|--------------|--------------------|-----------------------------------
G|-----5--------|--------1--3--5-----|-----1--5--3--1--0--0--------------
D|--5-----5--3--|-----3-----------3--|--3--------------------3--1--0-----
A|--------------|--3-----------------|--------------------------------3--
E|--------------|--------------------|-----------------------------------



E|-----------------------------------------|-----------|-----------------------------
B|-----------------------------------------|-----------|-----------------------------
G|--5--4--3--4--5--3--5--4--3--4--5--3-----|-----------|-----------------------------
D|--------------------------------------5--|-----3--5--|--6--5--3--5--3--1--0-----1--
A|-----------------------------------------|--5--------|-----------------------3-----
E|-----------------------------------------|-----------|-----------------------------



E|--------------------|-----------------------------|--------------------
B|--------------------|-----------------------------|--------------------
G|--------------------|-----------------------------|--------------------
D|--------------------|--6--6--6--3--3--1--0-----1--|--------------------
A|--5--5--4--4--3--3--|-----------------------3-----|--5--5--4--4--3--3--
E|--------------------|-----------------------------|--------------------
http://www.guitartabcreator.com
Guitar Tab Creator is intended to store guitar tab created through the tool. It currently does not support in-line text editing. Any text you place in here will be lost. If you need to comment on your tab, please use the "Tab Notes" section located below.