St. Thomas

(/) Slide Up  (\) Slide Down  (h) Hammer On  (p) Pull Off  (b) Bend (r) Release (v) Vibrato


E|--------------------------------------
B|--------------------------------------
G|-----5--4--4-----------------5--4--5--
D|--5-----------5--7--2--3--5-----------
A|--------------------------------------
E|--------------------------------------



E|--------------------------------------------
B|--5--6--8--6--5--3--5--3--1-----------------
G|-----------------------------2-----5--4--5--
D|--------------------------------5-----------
A|--------------------------------------------
E|--------------------------------------------



E|---------------------------------------------------------------------------
B|--------------------------------------------------------------------4--10--
G|--------------------------------------------------------------4--7---------
D|--5-----5-----5-----5--5-----5--5-----5-----5-----7--5--5--7---------------
A|-----5-----7-----5--------5--------5-----5-----7---------------------------
E|---------------------------------------------------------------------------
http://www.guitartabcreator.com
Guitar Tab Creator is intended to store guitar tab created through the tool. It currently does not support in-line text editing. Any text you place in here will be lost. If you need to comment on your tab, please use the "Tab Notes" section located below.