My opinion

(/) Slide Up  (\) Slide Down  (h) Hammer On  (p) Pull Off  (b) Bend (r) Release (v) Vibrato

E|--------------------------------------------------------1--1--1--1--1--1--
B|--1--1--1--1--1--1--------------------1--1--1--1--1--1--1--1--1--1--1--1--
G|--------------------1--1--1--1--1--1--2--2--2--2--2--2--2--2--2--2--2--2--
D|--2--2--2--2--2--2--2--2--2--2--2--2--2--2--2--2--2--2--3--3--3--3--3--3--
A|--3--3--3--3--3--3--2--2--2--2--2--2--------------------3--3--3--3--3--3--
E|--------------------------------------------------------1--1--1--1--1--1--



E|-------------------------------------------------------13--12--10----------10--
B|--8------------8--9--9--9--10--12--13--13--13--12--10--------------12--13------
G|-----0--9--10------------------------------------------------------------------
D|-------------------------------------------------------------------------------
A|-------------------------------------------------------------------------------
E|-------------------------------------------------------------------------------



E|--12--10-----------------
B|----------13-------------
G|--------------12--10--9--
D|-------------------------
A|-------------------------
E|-------------------------
http://www.guitartabcreator.com
Guitar Tab Creator is intended to store guitar tab created through the tool. It currently does not support in-line text editing. Any text you place in here will be lost. If you need to comment on your tab, please use the "Tab Notes" section located below.