I could have lied

(/) Slide Up  (\) Slide Down  (h) Hammer On  (p) Pull Off  (b) Bend (r) Release (v) Vibrato

E|-------------------------------------------------------
B|-------------------------------------------------------
G|-------------------------------------------------------
D|-------0-----4-----0-----4-----0-----4--7--5--4--------
A|--0h2-----2-----2-----2-----2-----2-----0--------5-----
E|----------------------------------------------3-----3--



E|--------------------------------------------------------
B|-------------------------------2h3p2--------------------
G|--------------------------------------------------------
D|-------0-----4-----0-----4------------4--7--5--4--------
A|--0h2-----2-----2-----2-----0------------0--------5-----
E|-----------------------------------------------3-----3--



E|--------0--0--0--
B|--4--7--0--0-----
G|--4--7--6--4-----
D|--4--7--7--5-----
A|--2--5--7--5-----
E|--------5--3-----



E|---------10--8---
B|-----12--10--8---
G|--9--12--11--9---
D|--9--12--12--10--
A|--7--10--12--10--
E|---------10--8---



E|----------------------------------
B|----------------------------------
G|----------------------------------
D|---------------7--9b11--11b9------
A|-------5--7/9-----------------10--
E|--5/7-----------------------------
http://www.guitartabcreator.com
Guitar Tab Creator is intended to store guitar tab created through the tool. It currently does not support in-line text editing. Any text you place in here will be lost. If you need to comment on your tab, please use the "Tab Notes" section located below.