Spanish Practice

(/) Slide Up  (\) Slide Down  (h) Hammer On  (p) Pull Off  (b) Bend (r) Release (v) Vibrato


E|-----------3-----------------------------------------------------------------
B|--------------3--0-----------0--------2--------------------------------------
G|--------2-----------------2-----0-----------------2--0-----------------------
D|-----------------------------------0-----2--------------0--------------------
A|-----2-----------------2--------------------0--2--------------0-----0-----0--
E|--0-----------------0--------------------------------------0-----0-----0-----



E|----------------------3--------1--------------------------------
B|-------------------------3--------0-----------------------------
G|-----------------0h2--------2--------0-----0--2--------0h2p0h2--
D|------------0h2----------------------------------2--------------
A|--1--0h2h3------------------------------------------2-----------
E|----------------------------------------0-----------------------
http://www.guitartabcreator.com
Guitar Tab Creator is intended to store guitar tab created through the tool. It currently does not support in-line text editing. Any text you place in here will be lost. If you need to comment on your tab, please use the "Tab Notes" section located below.