7/4 Phrygian Riff

(/) Slide Up  (\) Slide Down  (h) Hammer On  (p) Pull Off  (b) Bend (r) Release (v) Vibrato


E|------------------------------------------------------------------------------------------
B|-------------------------------------------------------------10---------------7-----------
G|--------7--------11---------------6-----------------7-------------------------------------
D|-----9--------9----------9-----9-----9--7--9-----9--------9----------9-----9-----9--7--9--
A|------------------------------------------------------------------------------------------
E|--7--------8---------10-----8-----------------7--------8---------10-----8-----------------



E|--------10--------9---------------7---------------------------8---------------7-----------
B|----------------------------------------------------10------------------------------------
G|------------------------------------------------------------------------------------------
D|-----9---------9---------9-----9-----9--7--9-----9---------9---------9-----9-----9--7--9--
A|------------------------------------------------------------------------------------------
E|--7---------8--------10-----8-----------------7---------8--------10-----7-----------------
http://www.guitartabcreator.com
Guitar Tab Creator is intended to store guitar tab created through the tool. It currently does not support in-line text editing. Any text you place in here will be lost. If you need to comment on your tab, please use the "Tab Notes" section located below.