Original 1

(/) Slide Up  (\) Slide Down  (h) Hammer On  (p) Pull Off  (b) Bend (r) Release (v) Vibrato

Tuning: Drop C

Verse x2

E|-------------------------------------------------------------------------
B|-------------------------------------------------------------------------
G|-------------------------------------------------------------------------
D|-------------------------------------------------------------------------
A|----------------------8-----7---7h8------------------------8-----7---7h8-
E|-0-0-0-0-0--0-0-0-0-0---0-0---0-------0-0-0-0-0--0-0-0-0-0---0-0---0-----



E|-------------------------------------------------------------------------
B|-------------------------------------------------------------------------
G|-------------------------------------------------------------------------
D|----------------------5-----3---3h5------------------------7-----5---7h8-
A|-------------------------------------------------------------------------
E|-3-3-3-3-3--3-3-3-3-3---3-3---3-------5-5-5-5-5--5-5-5-5-5---5-5---5-----


Prechorus x4
E|--------------
B|--------------
G|--------------
D|--------------
A|--------------
E|-0-0-0---0--0-


Chorus
E|----------------------------------------------------------------------------------
B|----------------------------------------------------------------------------------
G|----------------------------3-----------------------------3-----------------------
D|----------------------0--3--3--5--------7--------5--0--3--1--5--------5--------3--
A|----------------------0--3--1--5--------------------0--3--1--5--------------------
E|--12--0--10h12--------0--3-----5--5--5-----5--5-----0--3-----5--5--5-----3--3-----

Interlude

E|--------------------
B|--------------------
G|--------------------
D|------------4----3--
A|--5----6------------
E|--------------------

Verse x2

E|-------------------------------------------------------------------------
B|-------------------------------------------------------------------------
G|-------------------------------------------------------------------------
D|-------------------------------------------------------------------------
A|----------------------8-----7---7h8------------------------8-----7---7h8-
E|-0-0-0-0-0--0-0-0-0-0---0-0---0-------0-0-0-0-0--0-0-0-0-0---0-0---0-----



E|-------------------------------------------------------------------------
B|-------------------------------------------------------------------------
G|-------------------------------------------------------------------------
D|----------------------5-----3---3h5------------------------7-----5---7h8-
A|-------------------------------------------------------------------------
E|-3-3-3-3-3--3-3-3-3-3---3-3---3-------5-5-5-5-5--5-5-5-5-5---5-5---5-----


Prechorus x4
E|--------------
B|--------------
G|--------------
D|--------------
A|--------------
E|-0-0-0---0--0-

Chorus
E|----------------------------------------------------------------------------------
B|----------------------------------------------------------------------------------
G|----------------------------3-----------------------------3-----------------------
D|----------------------0--3--3--5--------7--------5--0--3--1--5--------5--------3--
A|----------------------0--3--1--5--------------------0--3--1--5--------------------
E|--12--0--10h12--------0--3-----5--5--5-----5--5-----0--3-----5--5--5-----3--3-----

Interlude

E|--------------------
B|--------------------
G|--------------------
D|------------4----3--
A|--5----6------------
E|--------------------

Breakdown
4x open, 3x muted
E|--------------
B|--------------
G|--------------
D|--------------
A|--------------
E|-0-0-0---0--0-

E|--------------
B|--------------
G|--------------
D|------------1-
A|------------1-
E|-0-0-0---0--1-


Chorus 1x normal 1x muted
E|----------------------------------------------------------------------------------
B|----------------------------------------------------------------------------------
G|----------------------------3-----------------------------3-----------------------
D|----------------------0--3--3--5--------7--------5--0--3--1--5--------5--------3--
A|----------------------0--3--1--5--------------------0--3--1--5--------------------
E|--12--0--10h12--------0--3-----5--5--5-----5--5-----0--3-----5--5--5-----3--3-----

E|----------------------------------------------------------------------------------
B|----------------------------------------------------------------------------------
G|----------------------------------------------------------------------------------
D|------------4----3--/-/-/-/-/-0~~-------------------------------------------------
A|--5----6----------------------0~~-------------------------------------------------
E|------------------------------0-~~-------------------------------------------------


http://www.guitartabcreator.com
Guitar Tab Creator is intended to store guitar tab created through the tool. It currently does not support in-line text editing. Any text you place in here will be lost. If you need to comment on your tab, please use the "Tab Notes" section located below.