Anyway You Like It

(/) Slide Up  (\) Slide Down  (h) Hammer On  (p) Pull Off  (b) Bend (r) Release (v) Vibrato

Main Verse Riff
E|--------------------------------------------------------------
B|--------------------------------------------------------------
G|--------------------------------------------------------------
D|--------------------------------------------------------------
A|--------------------------2-----------------------------2-----
E|--2--4--2--4--2--4--2--4-----4--2--4--2--4--2--4--2--4-----4--


Rhythm Chorus
E|--------------------------------------------------------------------------------------------
B|--------------------------------------------------------------------------------------------
G|--------------------------------------------------------------------------------------------
D|--------------------------------------------------------------------------------------------
A|-----2--------4--------6--------6--------2--------4--------6--------6--------2--------4-----
E|--0-----0--2-----2--4-----4--4-----4--0-----0--2-----2--4-----4--4-----4--0-----0--2-----2--



E|--------------------------------------------------------------------
B|--------------------------------------------------------------------
G|--------------------------------------------------------------------
D|--------------------------------------------------------------------
A|-----6--------6--------2--------4-----------------------------2-----
E|--4-----4--4-----4--0-----0--2-----2--2--4--2--4--2--4--2--4-----4--
(Goes back into the lead here)

Rhythm Bridge
E|-----2--
B|-----2--
G|--1--3--
D|--2--4--
A|--2--4--
E|--0--2--


Lead Bridge
E|---------------------------------------------------------------------------
B|---------------------------------------------------------------------------
G|--4--6--8--11--11--8--4--6--8--8--8--6--4--6--8--11--11--8--4--6--8--6--4--
D|--2--4--6--9---9---6--2--4--6--6--6--4--2--4--6--9---9---6--2--4--6--4--4--
A|--------------------------------------------------------------------------
E|---------------------------------------------------------------------------
http://www.guitartabcreator.com
Guitar Tab Creator is intended to store guitar tab created through the tool. It currently does not support in-line text editing. Any text you place in here will be lost. If you need to comment on your tab, please use the "Tab Notes" section located below.