Example 1

(/) Slide Up  (\) Slide Down  (h) Hammer On  (p) Pull Off  (b) Bend (r) Release (v) Vibrato

E|--7--5--0--------------7--5--8-----------------------------------------5--3--0--0--0--
B|--------------------0-----------6--6-----------------6-----------------3-----5--1-----
G|-----------------5--------------------------5--6--7-----------5--------4-----4--3-----
D|--------------5--------------------------5-----------------7--------------------2-----
A|--------------------------------------5-----------------5-----------5--------3--------
E|-----------5-----------------------------------------------------3--------------2-----



E|--------0--------------3--1-----------1--0--------------
B|--1--3--------------1--------3--------------------1-----
G|--------------------0--------------2--------3--4--4-----
D|-----------------0-----------------3--------6--3--2-----
A|--------------0-----------------1-----------5--------0--
E|-----------1--------------------------------0--4--------
http://www.guitartabcreator.com
Guitar Tab Creator is intended to store guitar tab created through the tool. It currently does not support in-line text editing. Any text you place in here will be lost. If you need to comment on your tab, please use the "Tab Notes" section located below.