standard clean

(/) Slide Up  (\) Slide Down  (h) Hammer On  (p) Pull Off  (b) Bend (r) Release (v) Vibrato

E|--------------------------------
B|--------------------------------
G|-------------12-----------------
D|---------14------14-------------
A|--------------------------------
E|--0--12--------------12--0--12--



E|-------------------0---------
B|----------------0-----0------
G|------------10-----------10--
D|---------0-------------------
A|-----10----------------------
E|--0--------------------------



E|-----------------------------
B|----------------0--12--------
G|------------10---------0-----
D|---------0----------------0--
A|-----10----------------------
E|--0--------------------------
http://www.guitartabcreator.com
Guitar Tab Creator is intended to store guitar tab created through the tool. It currently does not support in-line text editing. Any text you place in here will be lost. If you need to comment on your tab, please use the "Tab Notes" section located below.