HardFail Intro Hatred

(/) Slide Up  (\) Slide Down  (h) Hammer On  (p) Pull Off  (b) Bend (r) Release (v) Vibrato

Stave 1:

E|---------------------------------------------------------------------
A|---------------------------------------------------------------------
D|---------------------------------------------------------------------
G|------------------12---------------------------------12--------------
B|------12--14--15------15--14--12h14------12--14--15------15--14--12--
E|--12---------------------------------12------------------------------

Stave 2:

E|-------------------------------------------------------------
A|-------------------------------------------------------------
D|-------------------------------------------------------------
G|----------------9------------------------------9-------------
B|-----9--11--12-----12--11--9h11-----9--11--12-----12--11--9--
E|--9------------------------------9---------------------------

Stave 3:

E|-----------------------------------------------------------
A|-----------------------------------------------------------
D|-----------------------------------------------------------
G|---------------7---------------------------7---------------
B|-----7--9--10-----10--9--7h9-----7--9--10-----10--9--7--9--
E|--7---------------------------7----------------------------

Stave 4:

E|--------------------------------------------------------------
A|--------------------------------------------------------------
D|--------------------------------------------------------------
G|--------------------------------------------------------------
B|-----------------------------5-----------------------------7--
E|--0--0--0--0--0--0--0--0--0-----0--0--0--0--0--0--0--0--0-----

http://www.guitartabcreator.com
Guitar Tab Creator is intended to store guitar tab created through the tool. It currently does not support in-line text editing. Any text you place in here will be lost. If you need to comment on your tab, please use the "Tab Notes" section located below.