Fast

(/) Slide Up  (\) Slide Down  (h) Hammer On  (p) Pull Off  (b) Bend (r) Release (v) Vibrato

E|------------------------------------------------------------------------
B|------------------------------------------------------------------------
G|--------------5-------------------5--------------5-------------------5--
D|-----5--6--7--------5--6--7-------------5--6--7--------5--6--7----------
A|--7--------------7-----------5-------7--------------7-----------5-------
E|------------------------------------------------------------------------



E|---------------------------------------------------------------------
B|---------------------------------------------------------------------
G|--------------5-------------------5--------------5-----7--7--7p5-----
D|-----5--6--7--------5--6--7-------------5--6--7-------------------7--
A|--7--------------7-----------5-------7--------------7----------------
E|---------------------------------------------------------------------



E|----------------------------------------------------------------------------------------------
B|----------------------------------------------------------------------------------------------
G|-----------------5-----------------------------------------------------------5--------7b8--7--
D|--------5--6--7-----7--5--5--7---------5--6--7-------5--6--7--------5--6--7-----7--5----------
A|--7--7----------------------------5-------------6-------------7--7----------------------------
E|----------------------------------------------------------------------------------------------



E|---------------------------------------
B|---------------------------------------
G|--7p5----------------------------------
D|------------5--6--7-------5--6--7p5h7--
A|-------5-------------6-----------------
E|---------------------------------------
http://www.guitartabcreator.com
Guitar Tab Creator is intended to store guitar tab created through the tool. It currently does not support in-line text editing. Any text you place in here will be lost. If you need to comment on your tab, please use the "Tab Notes" section located below.