Sweep Solo

(/) Slide Up  (\) Slide Down  (h) Hammer On  (p) Pull Off  (b) Bend (r) Release (v) Vibrato


E|----------------------------------------------------------13-16-17p13----------13-15-12---------
B|----------------14-15----------------------------------15-------------15----15----------13------
G|-------14----15-------14----------------------------14-------------------14----------------12---
D|----15----17-------------15----------------------15---------------------------------------------
A|-17-------------------------17-12----------12-17------------------------------------------------
E|----------------------------------15-12-15------------------------------------------------------



E|----12-18-13----------13-13-10----12-9--------------------------
B|-13----------15----15----------11------10\15--------------------
G|----------------15---------------------------14-----------------
D|------------------------------------------------15--------------
A|---------------------------------------------------17-12--------
E|---------------------------------------------------------15-12v-
http://www.guitartabcreator.com
Guitar Tab Creator is intended to store guitar tab created through the tool. It currently does not support in-line text editing. Any text you place in here will be lost. If you need to comment on your tab, please use the "Tab Notes" section located below.