D Minor solo

(/) Slide Up  (\) Slide Down  (h) Hammer On  (p) Pull Off  (b) Bend (r) Release (v) Vibrato

E|----------------------------------------------------18-17-15-17b18--------------------------------
B|---------------------14b15-15-15-15-15b14--------15----------------18-18-18-18-18v--17-18-17-15---
G|-------14-15v--14-15--------------------------15--------------------------------------------------
D|----15-------------------------------------17-----------------------------------------------------
A|-17-----------------------------------------------------------------------------------------------
E|--------------------------------------------------------------------------------------------------



E|----------------------------------------------------------------------------------------------------
B|-17-15-14-15-14-------------------------------------------------------------------------------------
G|----------------17-15-14-15-14----------------------------------------------------------------------
D|-------------------------------17-15-14-15-14-----------------------------14-15-15-14---------------
A|----------------------------------------------17-16-17v--17-17-17v--16-17-------------17-16-13-15---
E|----------------------------------------------------------------------------------------------------



E|---------------------------------------------------------
B|---------------------------------------------------------
G|---------------------------------------------------------
D|--12--15--12---------------------------------------------
A|--------------13-----------------------------------------
E|------------------15--12v----12--12--12v----12--12--12v--
http://www.guitartabcreator.com
Guitar Tab Creator is intended to store guitar tab created through the tool. It currently does not support in-line text editing. Any text you place in here will be lost. If you need to comment on your tab, please use the "Tab Notes" section located below.