Cobidea intro

(/) Slide Up  (\) Slide Down  (h) Hammer On  (p) Pull Off  (b) Bend (r) Release (v) Vibrato

E|----------------------------------------------------------------------------------------------
B|-------15----13-------------------------------------------------------------------------------
G|-------------------15----14----12----15-14-12--------14----12-------------------14-12---------
D|-12-12----12----12----12----12----12-----------12-12----12----12-15-11----11-14-------15-14---
A|-----------------------------------------------------------------------12---------------------
E|----------------------------------------------------------------------------------------------



E|----------------------------------------------------------------------------------------------
B|-------15----13-------------------------------------------------------------------------------
G|-------------------15----14----12----15-14-12--------14----12-------------------14-12---------
D|-12-12----12----12----12----12----12-----------12-12----12----12-15-11----11-14-------15-14---
A|-----------------------------------------------------------------------12---------------------
E|----------------------------------------------------------------------------------------------



E|------------------------------------------------------9--10\18--17--
B|--------------10--13--11--10------------------10--11----------------
G|--10------10------------------12----9------9------------------------
D|------12-------------------------------11---------------------------
A|--------------------------------------------------------------------
E|--------------------------------------------------------------------
http://www.guitartabcreator.com
Guitar Tab Creator is intended to store guitar tab created through the tool. It currently does not support in-line text editing. Any text you place in here will be lost. If you need to comment on your tab, please use the "Tab Notes" section located below.