stargazer chorus

(/) Slide Up  (\) Slide Down  (h) Hammer On  (p) Pull Off  (b) Bend (r) Release (v) Vibrato


E|-----------------------------------------------------------------------------------
B|-----------------------------------------------------------------------------------
G|-----------------------------------------------------------------------------------
D|--------------------------------------------------------------5--------7--------8--
A|-----------------12--------10--------8--10-----------------------------------------
E|--0--0--0--0--0------0--0------0--0---------7--7--0--0--0--0-----0--0-----0--0-----



E|--------------------------------------------------------------------
B|--------------------------------------------------------------------
G|--------------------------------------------------------------------
D|--------------------8--7--5-----5-----7-----------------------------
A|-----------------------------8-----8--------------------------------
E|--5--5--0--0--0--0-----------------------3--3--0--0--2--0--2--0--2--
http://www.guitartabcreator.com
Guitar Tab Creator is intended to store guitar tab created through the tool. It currently does not support in-line text editing. Any text you place in here will be lost. If you need to comment on your tab, please use the "Tab Notes" section located below.