breakdown1

(/) Slide Up  (\) Slide Down  (h) Hammer On  (p) Pull Off  (b) Bend (r) Release (v) Vibrato


E|--------------------------------------------------------------------
B|-----------------------------5--------------------------------------
G|--------------------------8-----------------------------------------
D|--------------------------------------------------------------------
A|--------------------------------------------------5--8--5-----------
E|--0--0--0--0--0--0--0--0--------0--0--0--0--5--8-----------8--5--8--



E|--------------------------------------------------------------------
B|-----------------------------5--------------------------------------
G|--------------------------8-----------------------------------------
D|--------------------------------------------------------------------
A|--------------------------------------------------5--8--------3--6--
E|--0--0--0--0--0--0--0--0--------0--0--0--0--5--8--------3--6--------
http://www.guitartabcreator.com
Guitar Tab Creator is intended to store guitar tab created through the tool. It currently does not support in-line text editing. Any text you place in here will be lost. If you need to comment on your tab, please use the "Tab Notes" section located below.