Triplets from Hell

(/) Slide Up  (\) Slide Down  (h) Hammer On  (p) Pull Off  (b) Bend (r) Release (v) Vibrato

Part A
E|----------------------------------------|--------------------------------------
B|----------------------------------------|--------------------------------------
G|----------------------------------------|--------------------------------------
D|----------------------9--7--5-----------|--7--5--4-----------5--4--2-----------
A|--10--9--7---------------------9--7--6--|-----------7--5--3-----------6--3--2--
E|------------11--8--7--------------------|--------------------------------------



E|--------------------------------------|--
B|--------------------------------------|--
G|--------------------------------------|--
D|--------------------------------------|--
A|--3-----------------------3-----------|--
E|-----5--3--2--0--2--3--5-----5--3--0--|-- These 3 Bars x 6.

Then it leads into the bit you wrote so I didnt tab that part out. Which is 16 bars in total. Then into...

Part C
E|--------------------------------------|-----------------------------------
B|--------------------------------------|-----------------------------------
G|--------------------------------------|-----------------------------------
D|--------------------------------------|-----------------------------------
A|--------------------7--6--3--2--------|--------------------7--6--3--------
E|--0--0--0--0--0--0--------------3--2--|--3--3--3--3--3--3-----------3--2--



E|--------------------------------------|--------------------------------------
B|--------------------------------------|--------------------------------------
G|--------------------------------------|--------------------------------------
D|--------------------------------------|-----------------5--4--2--------------
A|--------------------7--6--3--2--------|-----------2--6-----------3--2--------
E|--7--7--7--7--7--7--------------3--2--|--0--2--5-----------------------5--3--

These last four bars are repeated twice.

Part D

E|--------------------------------------------------------
B|--------------------------------------------------------
G|--------------------------------------------------------
D|--------------------------------------------------------
A|-----------7-7-7-7-7-7----------------6-6-6-6-6-6-------
E|--0--0--0--------------------0--0--0--------------------



E|---------------------------------------------------
B|---------------------------------------------------
G|---------------------------------------------------
D|---------------------------------------------------
A|-----------3-3-3-3-3-3----------------2-2-2-2-2-2--
E|--0--0--0--------------------0--0--0---------------

^This part is repeated twice.

Then

Part E

E|--------------------------------------|----------------------------------------
B|--------------------------------------|----------------------------------------
G|--------------------------------------|-----------8--9-------------------------
D|-----2-----------4-----------5--------|--------7--------9---------------10-----
A|--------2-----------3-----------2--6--|-----6--------------7--10------------6--
E|--0--------3--2--------5--3-----------|--5------------------------7--8---------

^This is repeated twice.
Then go pack to Part D twice and Part E twice.

Then..

Part F

I found this last part tricky. It's a combination of 1/8 triplets, 1/16 triplets and ordinary 1/8 notes.





E|---------------------------------------------------
B|---------------------------------------------------
G|---------------------------------------------------
D|---------------------------------------------------
A|---------------------------------------------------
E|--0--0-0-0-0--2--5-3-2--0--0--0--0--0--2--5--3--2--

^ Repeat twice.

I'm not going to tab out the next bit because its just a combination of parts E and F. You should be able to figure it out from the track I sent you.
http://www.guitartabcreator.com
Guitar Tab Creator is intended to store guitar tab created through the tool. It currently does not support in-line text editing. Any text you place in here will be lost. If you need to comment on your tab, please use the "Tab Notes" section located below.