Theorom Chorus Melody

(/) Slide Up  (\) Slide Down  (h) Hammer On  (p) Pull Off  (b) Bend (r) Release (v) Vibrato


E|----------|--------------|----------|--------------|----------|--------------|-------------
B|----------|--------------|----------|--------------|----------|--------------|-------------
G|--14--13--|--------------|--14--13--|--------------|--14--13--|--------------|--14--13-----
D|----------|--15--14--15--|----------|--15--14--15--|----------|--15--14--15--|-------------
A|----------|--------------|----------|--------------|----------|--------------|-------------
E|----------|--------------|----------|--------------|----------|--------------|-------------



E|--------------
B|--------------
G|--14--16--14--
D|--------------
A|--------------
E|--------------



E|----------|--------------|----------|--------------|----------|----------
B|----------|--------------|----------|--------------|----------|----------
G|--14--13--|--------------|--14--13--|--------------|--14--13--|--17--16--
D|----------|--15--14--15--|----------|--15--14--15--|----------|----------
A|----------|--------------|----------|--------------|----------|----------
E|----------|--------------|----------|--------------|----------|----------



E|--------------|----------------
B|--------------|----------------
G|----------13--|--14--16--14----
D|--15--14------|----------------
A|--------------|----------------
E|--------------|----------------
http://www.guitartabcreator.com
Guitar Tab Creator is intended to store guitar tab created through the tool. It currently does not support in-line text editing. Any text you place in here will be lost. If you need to comment on your tab, please use the "Tab Notes" section located below.