A Harmonic Minor Melody

(/) Slide Up  (\) Slide Down  (h) Hammer On  (p) Pull Off  (b) Bend (r) Release (v) Vibrato
E|--------------------------------------------------
B|--------------------------------------------------
G|--------------------------------------------------
D|--------------6-----6--------7--9--------6--9--7--
A|--------5--8-----5-----7--8--------8--7-----------
E|--5--8--------------------------------------------



E|------------------------------------------------------
B|------------------------------------------------------
G|------9--7------7--10--9------------------------7--9--
D|--10--------10------------9--7--10--9--------6--------
A|---------------------------------------8--7-----------
E|------------------------------------------------------



E|------------------------------------------------------
B|------------------------------------------------------
G|-----------7-----7--5--------5--7---------------------
D|--7--6--7-----6--------6--7--------7--6--9--7--10-----
A|------------------------------------------------------
E|------------------------------------------------------



E|-----------------------------------------------------------
B|-----------------------------------------------------------
G|--9---------------10---------9--10-----10--9--7-----10-----
D|-----6--10--7--9------9--10---------9----------------------
A|-------------------------------------------------9---------
E|-----------------------------------------------------------



E|--------------------------------------------------
B|--------------------------------------------------
G|--9-----------------------------------------------
D|-----7--------6-----------------9--------------7--
A|--------8--5-----5-----------7-----8-----5--8-----
E|--------------------4--8--5-----------7-----------



E|---------------------------------------------------
B|---------------------------------------------------
G|--------------------------9------------------------
D|--6-----7-----6--7--6--8-----10--7-----6-----6-----
A|-----7-----5------------------------5-----5-----8--
E|---------------------------------------------------



E|--------------------------------------------------
B|--------------------------------------------------
G|--------------------------------------------------
D|--7--6--------6-----6--------7--9-----6-----7-----
A|--------5--8-----5-----7--8--------8-----7-----7--
E|--------------------------------------------------



E|------------------------------------------------------
B|------------------------------------------------------
G|----------------------------9--14----13--17--21-------
D|----------------6--9----10---------------------------
A|--------5----8----------------------------------------
E|--5--8------------------------------------------------
http://www.guitartabcreator.com
Guitar Tab Creator is intended to store guitar tab created through the tool. It currently does not support in-line text editing. Any text you place in here will be lost. If you need to comment on your tab, please use the "Tab Notes" section located below.