Arpeggios from Hell

(/) Slide Up  (\) Slide Down  (h) Hammer On  (p) Pull Off  (b) Bend (r) Release (v) Vibrato

(W|WW) Whole (H|HH) Half (Q|QQ) Quarter (E|EE) 8th (S|SS) 16th (T|TT) 32nd (X|XX) 64th

Stave 1:
t: S S S S S S S S S S S S S S S S
E|--------------------------------------------------------------------------------------
B|--------------------------------------------------------------------------------------
G|--------------------------------------------------------------------------------------
D|--------------------------------------------------------------------------------------
A|--------------------------------------6--6--6--6--------------------------------------
E|--0--0--0--0--3--3--3--3--7--7--7--7--------------------------------------------------

Stave 2:
t: S S S S S S S S S S S S S S S S
E|--------------------------------------------------
B|--------------------------------------------------
G|--------------------------------------------------
D|--------------------------------------5--5--5--5--
A|--------------------------7--7--7--7--------------
E|--5--5--5--5--8--8--8--8--------------------------

Stave 3:
t: S S S S S S S S S S S S S S S S
E|--------------------------------------------------
B|--------------------------------------------------
G|--------------------------------------------------
D|--7--7--7--7--------------------------------------
A|--------------6--6--6--6--------------------------
E|--------------------------5--5--5--5--2--2--2--2--

Stave 4:
t: S S S S S S S S S S S S S S S S
E|--------------------------------------------------
B|--------------------------------------------------
G|--------------------------------------------------
D|--------------------------4--4--4--4--------------
A|--------------6--6--6--6--------------2--2--2--2--
E|--3--3--3--3--------------------------------------

Stave 5:
t: S S S S S S S S S S S S S S S S
E|--------------------------------------------------
B|--------------------------------------------------
G|--------------------------------------------------
D|--------------5--5--5--5--2--2--2--2--------------
A|--3--3--3--3--------------------------------------
E|--------------------------------------3--3--3--3--

Stave 6:
t: S S S S S S S S S S S S S S S S
E|--------------------------------------------------
B|--------------------------------------------------
G|--------------------------------------------------
D|--------------------------4--4--4--4--------------
A|--------------3--3--3--3--------------3--3--3--3--
E|--2--2--2--2--------------------------------------

Stave 7:
t: S S S S S S S S S S S S S S S S
E|--------------------------------------------------
B|--------------------------------------------------
G|--------------------------------------------------
D|--------------4--4--4--4--------------------------
A|--2--2--2--2--------------6--6--6--6--------------
E|--------------------------------------2--2--2--2--

Stave 8:
t: S S S S S S S S S S S S S S S S
E|--------------------------------------------------
B|--------------------------------------------------
G|--------------------------------------------------
D|--------------------------------------5--5--5--5--
A|--------------------------6--6--6--6--------------
E|--3--3--3--3--7--7--7--7--------------------------

Stave 9:
t: S S S S S S S S S S S S SS SS SS SS
E|------------------------------------------------------
B|------------------------------------------------------
G|--4--4--4--4--8--8--8--8--9--9--9--9--12--12--12--12--
D|------------------------------------------------------
A|------------------------------------------------------
E|------------------------------------------------------

Stave 10:
t: SS SS SS SS SS SS SS SS S S S S S S S S
E|----------------------------------------------------------
B|----------------------------------------------------------
G|--11--11--11--11------------------------------------------
D|------------------10--10--10--10--------------------------
A|----------------------------------9--9--9--9--------------
E|----------------------------------------------8--8--8--8--

Stave 11:
t: SS SS SS SS SS SS SS SS S S S S S S S S
E|----------------------------------------------------------
B|----------------------------------------------------------
G|----------------------------------------------------------
D|----------------------------------------------------------
A|--10--10--10--10------------------------------------------
E|------------------12--12--12--12--7--7--7--7--8--8--8--8--

http://www.guitartabcreator.com
Guitar Tab Creator is intended to store guitar tab created through the tool. It currently does not support in-line text editing. Any text you place in here will be lost. If you need to comment on your tab, please use the "Tab Notes" section located below.