dery song

(/) Slide Up  (\) Slide Down  (h) Hammer On  (p) Pull Off  (b) Bend (r) Release (v) Vibrato

E|--------------|--------------------------------------------------------------
B|--------------|--------------------------------------------------------------
G|-----------9--|-----------9-----9--------9--------------7--------5-----------
D|-----0--------|-----0--------7-----7--------0-----0--------0--------0--------
A|--------7-----|--------7-----------------------------0--------0--------0-----
E|--0-----------|--0--------------------8--------7-----------------------------



E|------------------------------------------------------------------------------------------
B|------------------------------------------------------5-----------------------------------
G|--------5--------3---------------2-----4--------4--------------5--7-----------------------
D|-----5--------3-----3-----2h3h2-----2-----0--------------0-----------7-----7-----7--------
A|--3--------3-----------3---------------------0-----3--------3-----------5-----------0-----
E|------------------------------------------------------------------------------6--------5--
http://www.guitartabcreator.com
Guitar Tab Creator is intended to store guitar tab created through the tool. It currently does not support in-line text editing. Any text you place in here will be lost. If you need to comment on your tab, please use the "Tab Notes" section located below.