Bass Tab 1

(/) Slide Up  (\) Slide Down  (h) Hammer On  (p) Pull Off  (b) Bend (r) Release (v) Vibrato


E|--------------------------------
B|--------------------------------
G|--------------------------------
D|--------------------------------
A|-----7--5-----------7--5--------
E|--0--------7--5--0--------7--5--



E|--------------------------------
B|--------------------------------
G|--------------------------------
D|-----7--5-----------7--5--------
A|--0--------7--5--0--------7--5--
E|--------------------------------



E|--------------------------------
B|--------------------------------
G|--------------------------------
D|--------------------------------
A|-----7--5-----------7--5--------
E|--0--------7--5--0--------7--5--



E|----------------------------------------------------------
B|----------------------------------------------------------
G|----------------------------------------------------------
D|----------------------------------------------------------
A|-----11--9------------9--7-----------7--5-----------------
E|--9---------11--9--7--------9--7--0--------7--5--0--5--7--
http://www.guitartabcreator.com
Guitar Tab Creator is intended to store guitar tab created through the tool. It currently does not support in-line text editing. Any text you place in here will be lost. If you need to comment on your tab, please use the "Tab Notes" section located below.