C-Major Scale

** C-Major Scale **
...................

(/) Slide Up (\) Slide Down (h) Hammer On (p) Pull Off (b) Bend (r) Release (v) Vibrato

E|----------------------------------------------------------------0--1--3--
B|--------------------0--1-------------------------------0--1--3-----------
G|--------------0--2-------------------------------0--2--------------------
D|-----0--2--3----------------------------0--2--3--------------------------
A|--3----------------------------0--2--3-----------------------------------
E|----------------------------3--------------------------------------------



E|----------------------------------------------------------------------3--
B|-------------------------------------------------------------3--5--6-----
G|--------------------4--5-------------------------------4--5--------------
D|-----------3--5--7----------------------------3--5--7--------------------
A|--3--5--7----------------------------3--5--7-----------------------------
E|----------------------------3--5--7--------------------------------------



E|--------------------------------------5--7--8--
B|-----------------------------5--6--8-----------
G|--------------------4--5--7--------------------
D|--------------5--7-----------------------------
A|-----5--7--8-----------------------------------
E|--8--------------------------------------------



E|-----------------------------------------------------------------------------10--12--13--15--
B|---------------------10--12--13----------------------------------10--12--13------------------
G|----------9--10--12-----------------------------------9--10--12------------------------------
D|--10--12-----------------------------------9--10--12-----------------------------------------
A|-----------------------------------10--12----------------------------------------------------
E|---------------------------------------------------------------------------------------------
Daniel Karanitsch - 2013
http://www.guitartabcreator.com
Guitar Tab Creator is intended to store guitar tab created through the tool. It currently does not support in-line text editing. Any text you place in here will be lost. If you need to comment on your tab, please use the "Tab Notes" section located below.