Undermined Verse, Breakdown

(/) Slide Up  (\) Slide Down  (h) Hammer On  (p) Pull Off  (b) Bend (r) Release (v) Vibrato
E|------------------------------------------------------------------------------------
B|------------------------------------------------------------------------------------
G|------------------------------------------------------------------------------------
D|--1--0--------------------------------1--3--4--3----1--0----------------------------
A|--1--0--0--0--0--0--0--0--0--0--0--0--1--3--4--3----1--0--0--0----------------------
E|--1--0--0--0--0--0--0--0--0--0--0--0----------------1--0--0--0--0--0--1----0--0--4--



E|--------------------------
B|--------------------------
G|--------------------------
D|--------------------------
A|--------------1-----------
E|--0--1--3--4-----4--3--0--



E|--------------------------------------------------------------------------------
B|--------------------------------------------------------------------------------
G|--------------------------------------------------------------------------------
D|-----------------------------------------0--1------1--0--1----1-----------------
A|------------------------5--4-------------0--1------1--0--1----1-----------------
E|--0--------0------------------0----------0--1------1--0--1----1-----------------



E|---------------------------------------------------------------------------------
B|---------------------------------------------------------------------------------
G|---------------------------------------------------------------------------------
D|---------------------------------------------------------------------------------
A|------------------------5--4-----------1--------2--1--------2--------------------
E|--0--------0------------------0--1--2-----2--1--------2--1-----------------------



E|-----------------------------------------------------------------------------------
B|-----------------------------------------------------------------------------------
G|-----------------------------------------------------------------------------------
D|-----------------------------------------------------------------------------------
A|-----------------------------------------------------------------------------------
E|--0--0--0--0----0--0--0--0--0--0----0--0--0--0--0--0----0--0--0--0--0--1--1--4--4--



E|------------------------------------------------------------------------------
B|------------------------------------------------------------------------------
G|------------------------------------------------------------------------------
D|------------------------------------------------------------------------------
A|------------------------------------------------------------------------------
E|--3--3--3--3----3--3--3--3--3--3----3--3--1--1--1--1----1--1--1--1--0--0--3v--



E|----------------------------------------------------------------------
B|----------------------------------------------------------------------
G|----------------------------------------------------------------------
D|----------------------------------------------------------------------
A|----------------------------------------------------------------------
E|--0--0--0----------0--0--0----------0--0--0----------0--0--0----------



E|-----------------------------------------------------------------------
B|-----------------------------------------------------------------------
G|-----------------------------------------------------------------------
D|-----------------------------------------------------------------------
A|-------------------------------7----------8----7-----------------------
E|--0--0--0----------0--0--7--8-------8--7----------7--8--0--0--0--------
http://www.guitartabcreator.com
Guitar Tab Creator is intended to store guitar tab created through the tool. It currently does not support in-line text editing. Any text you place in here will be lost. If you need to comment on your tab, please use the "Tab Notes" section located below.