Undermined Intro, Chorus, Bridge.

(/) Slide Up  (\) Slide Down  (h) Hammer On  (p) Pull Off  (b) Bend (r) Release (v) Vibrato

E|-----------------------------------------------------------------------------------------------
B|-----------------------------------------------------------------------------------------------
G|--------------8b----5--7v--------------------8v--11\7v-----------------------------------------
D|--------7--5---------------------------7--5----------------------------------------------------
A|-----5------------------------------5----------------------------------------------------------
E|--0------------------------------0-------------------------------------------------------------



E|-----------------------------------------------------------------------------------------------
B|-----------------------------------------------------------------------------------------------
G|-----------------------------------------------------------------------------------------------
D|-----------------------------------------------------------------------------------------------
A|-----------------------------------------------------------------------------------------------
E|--0--0--0--0--0------0--0--0--0--0------0--0--0--0--0------0--0--0--0--0-----------------------



E|-----------------------------------------------------------------------------------------------
B|-----------------------------------------------------------------------------------------------
G|-----------------------------------------------------------------------------------------------
D|-----------------------------------------------------------------------------------------------
A|-----------------------------------------------------------------------------------------------
E|--0--0--0--0----0--0--0--0------0--0------0--0------0--0------0--0------0--0--0--0--6--5--0--3p



E|----------------------------------------------------------------------------------------------
B|----------------------------------------------------------------------------------------------
G|-----------7---------7--8--7--5---------------------------------------------------------------
D|--5--------5---------5--5--5--5--1----------1------1-------------------0--8--7----------------
A|--5--5--5--5----5----5--5--5--5--1----1--1--1------1-------------------0--8--7----------------
E|--5--5--5--5----5----5--5--5--5--1----1--1--1------1----1--3--3--------0--8--7----------------



E|----------------------------------------------------------------------------------------------
B|----------------------------------------------------------------------------------------------
G|----------------------------------------------------------------------------------------------
D|----------------------------------------------------------------------------------------------
A|----------------------------------------------------------------------------------------------
E|--0--0--0--0----0----0--0--0--0--0----0--0--0--0----3--3--3--3--6--6--6--6--5--5--5--5--------



E|----------------------------------------------------------------------------------------------
B|----------------------------------------------------------------------------------------------
G|----------------------------------------------------------------------------------------------
D|----------------------------------------------------------------------------------------------
A|----------------------------------------------------------------------------------------------
E|--1--1--1--1--4--4--4--4----------------------------------------------------------------------



E|--------
B|--------
G|--------
D|--------
A|--------
E|--------
http://www.guitartabcreator.com
Guitar Tab Creator is intended to store guitar tab created through the tool. It currently does not support in-line text editing. Any text you place in here will be lost. If you need to comment on your tab, please use the "Tab Notes" section located below.