Seduction Verse

(/) Slide Up  (\) Slide Down  (h) Hammer On  (p) Pull Off  (b) Bend (r) Release (v) Vibrato


E|--------------------------------------------------------------------------------------------------
B|--------------------------------------------------------------------------------------------------
G|--------------------------------------------------------------------------------------------------
D|--------------------------------------------------------------------------------------------------
A|--5-----------5--------5-----5--------5-----7--8--4-----------4--------4-----4--------4-----4--5--
E|-----0--0--0-----0--0-----0-----0--0-----0-----------7--7--7-----7--7-----7-----7--7-----7--------



E|--------------------------------------------------------------------------------------------------
B|--------------------------------------------------------------------------------------------------
G|--------------------------------------------------------------------------------------------------
D|--------------------------------------------------------------------------------------------------
A|--------7-----------5-----------7-----------5-----------------------------0--0--1--1--4--1--------
E|--8--8-----8--7--7-----7--5--5-----5--0--0-----0--0--0--2--2--3--3--5--5--------------------3--0--
http://www.guitartabcreator.com
Guitar Tab Creator is intended to store guitar tab created through the tool. It currently does not support in-line text editing. Any text you place in here will be lost. If you need to comment on your tab, please use the "Tab Notes" section located below.