Strange Gardens

(/) Slide Up  (\) Slide Down  (h) Hammer On  (p) Pull Off  (b) Bend (r) Release (v) Vibrato
E|---------------------------------------------------------------------------
B|---------------------------------------------------------------------------
G|-----------7-----------7----------------------7----------------------------
D|--9--7--9-----9--7--9-----9--7--9----9--7--9-----9--7--9--7----------------
A|-------------------------------------------------------------9--8--7--5----
E|---------------------------------------------------------------------------



E|-----------------------------------------------------------------------
B|-----------------------------------------------------------------------
G|-----------7-----------9b9--7-------------7----------------------7-----
D|--9--7--9-----9--7--9------------9--7--9----------------7--8--9-----9--
A|-----------------------------------------------7--8--9-----------------
E|-----------------------------------------------------------------------



E|--2----------0---------2--------2----------0---------3--------
B|--3----------0---------2--------3----------0---------3--------
G|--4----------0---------3--------4----------0---------4--------
D|--4----------2---------4--------4----------2---------5--------
A|--2----------2---------4--------2----------2---------5--------
E|-------------0------1--2-------------------0------2--3--------



E|-----------------0----2-------------------0--
B|-------------10--3----2---------------10--3--
G|--9--10--11------4----2----9--10--11------4--
D|-------------7---4----4---------------7---4--
A|--7--8---9-------2----4----7--8---9-------2--
E|----------------------2----------------------
http://www.guitartabcreator.com
Guitar Tab Creator is intended to store guitar tab created through the tool. It currently does not support in-line text editing. Any text you place in here will be lost. If you need to comment on your tab, please use the "Tab Notes" section located below.