Plechovka

(/) Slide Up  (\) Slide Down  (h) Hammer On  (p) Pull Off  (b) Bend (r) Release (v) Vibrato
E|-----------------------------------------------------------------------------------------------
B|--------4--------4--------2--------2--------2--------2--------------2--------2-----------------
G|-----4-----4--------4--------4--------4--------4--------4--------1-----1--------1--------1-----
D|-----------------------------------------------------------------------------------------------
A|-----------------------------------------------------------------------------------------------
E|--4-----------4--------4--------4--------4--------4--------4--0-----------0--------0--2--------



E|--------------------
B|--2--------2--------
G|-----1--------1-----
D|--------------------
A|--------------------
E|--------2--------2--



E|-----------------------------------------------------------------------------------------------
B|--------0--------0--------------2--------2--------------0--------0--------------2--------2-----
G|-----4-----4--------4--------3-----3--------3--------1-----1--------1--------1-----1--------1--
D|-----------------------------------------------------------------------------------------------
A|-----------------------------------------------------------------------------------------------
E|--4-----------4--------4--2-----------2--------2--0-----------0--------0--2-----------2--------



E|-----------------------------------------------
B|--------0--------0--------------2--------2-----
G|-----1-----1--------1--------1-----1--------1--
D|-----------------------------------------------
A|-----------------------------------------------
E|--0-----------0--------0--2-----------2--------



E|--7--5-----4--7--5--4--7--5--4--2--0--2--0--
B|--7--5-----4--7--5--4--7--5--4--2--0--2--0--
G|--8--6-----4--8--6--4--8--6--4--3--1--3--1--
D|--9--7-----6--9--7--6--9--7--6--4--2--4--2--
A|--9--7-----6--9--7--6--9--7--6--4--2--4--2--
E|--7--5-----4--7--5--4--7--5--4--2--0--2--0--



E|--7--4--5--7--4--5--5--5--4--2--0--
B|--7--4--5--7--4--5--5--5--4--2--0--
G|--8--4--6--8--4--6--8--6--4--3--1--
D|--9--6--7--9--6--7--5--7--4--4--2--
A|--9--6--7--9--6--7--7--7--6--4--2--
E|--7--4--5--7--4--5--5--5--4--2--0--
http://www.guitartabcreator.com
Guitar Tab Creator is intended to store guitar tab created through the tool. It currently does not support in-line text editing. Any text you place in here will be lost. If you need to comment on your tab, please use the "Tab Notes" section located below.