Act V Julius Caesar Guitar Tab by Demetrius Merkey

(/) Slide Up  (\) Slide Down  (h) Hammer On  (p) Pull Off  (b) Bend (r) Release (v) Vibrato
E|-----------------------------------------------------
B|-----------------------------------------------------
G|-----------------------------------------------------
D|--------0-----------0-----------0-----------3-----0--
A|-----0-----0-----0-----0-----0-----0-----3-----3--0--
E|--0-----------0-----------0-----------3-----------0--



E|--------------------------------------------------
B|--------------------------------------------------
G|--------------------------------------------------
D|--4--4--4--4--4--4--0--0--4--4--4--4--4--4--7--7--
A|--4--4--4--4--4--4--0--0--4--4--4--4--4--4--7--7--
E|--4--4--4--4--4--4--0--0--4--4--4--4--4--4--7--7--



E|--------------------------------------------------------------------------------------------------
B|--------------------------------------------------------------------------------------------------
G|--------------------------------------------------------------------------------4-----------4-----
D|--------4-----------4-----------6-----------6-----------7-----------7-----------------------------
A|-----4-----4-----4-----4-----4-----4-----4-----4-----4-----4-----4-----4-----4-----4-----4-----4--
E|--4-----------4-----------4-----------4-----------4-----------4-----------4-----------4-----------



E|-----------------------------------------------------
B|-----------------------------------------------------
G|-----------------------------------------------------
D|--------------5-----------------------7--------------
A|--5--8--7--8-----8--7--8--5--8--7--8-----8--7--8--5--
E|-----------------------------------------------------



E|--------------------------------------------------------------
B|----------------8---------------------------10----------------
G|--7--10--9--10-----10--9--10--7--10--9--10------10--9--10--7--
D|--------------------------------------------------------------
A|--------------------------------------------------------------
E|--------------------------------------------------------------



E|---------------------------------------------------------------------------
B|---------------------------------------------------------------------------
G|------------------12------------------------------14-----------------------
D|--12--15--14--15------15--14--15--12--15--14--15------15--14--15--12-------
A|---------------------------------------------------------------------------
E|------------------------------------------------------------------------0--



E|--------1-----------1-----------0-----------0-----1--
B|-----3-----3-----3-----3-----3-----3-----3-----3--3--
G|--2-----------2-----------2-----------2-----------2--
D|-----------------------------------------------------
A|-----------------------------------------------------
E|-----------------------------------------------------



E|--------------------------------------------------------------------------
B|--------------------------------------------------------------------------
G|--------------------------------------------------------------------------
D|-----------0-----------------3-----------------8-----------------7--------
A|-----0--------0--------3--------3--------8--------8--------5--------7-----
E|--0-----0--------0--3-----3--------3--8-----8--------8--5-----5--------7--



E|--------------------------------------------------------------------------
B|--------------------------------------------------------------------------
G|--------------------------------------------------------------------------
D|-----------------------------4--------------------------------------------
A|--4--------4--------4-----------4-----4--------4--------4--------5--4-----
E|-----4--4-----4--4-----4--4--------4-----4--4-----4--4-----4--4--------4--



E|--------------------------------------------------------------------------------------------------
B|--------------------------------------------------------------------------------------------------
G|--------------------------------------------------------------------------------------------------
D|--------------------------------------------------------------------------------------------------
A|--------------------------------------------------------------------------------------------------
E|--0--0--0--0--3--3--3--3--2--2--2--2--2--2--2--2--0--0--0--0--8--8--8--8--7--7--7--7--7--7--7--7--



E|-----------------------------------------------------------------
B|-----------------------------------------------------------------
G|-----------------------------------------------------------------
D|-----------------------------------------------------------------
A|-----------------------------------------------------------------
E|-0-0-0-3-3-3-2-2-0-0-0-8-8-8-7-7-0-0-0-3-3-3-2-2-5-5-5-3-3-3-2-2-



E|--------------------------------------------------------------------------------------------
B|--------------------------------------------------------------------------------------------
G|--------------------------------------------------------------------------------------------
D|--------------------------------------------------------------------------------------------
A|--------------------------------------------------------------------------------------------
E|--0--0--0--3--3--3--2--2--0--0--0--8--8--8--7--7--0--0--0--3--3--3--5--5--5--2--2--2--3--3--



E|-------------------------------------------------------------------------------------------------
B|-------------------------------------------------------------------------------------------------
G|-------------------------------------------------------------------------------------------------
D|-------------------------------------------------------------------------------------------------
A|-0-----0-----8-----8-----7-----7-----7-----7-----0-----0-----8-----8-----7-----7-----7-----7-----
E|---0-0---0-0---8-8---8-8---7-7---7-7---7-7---7-7---0-0---0-0---8-8---8-8---7-7---7-7---7-7---7-7-



E|-----------------------------------------------------------------------------------------------------------------------------------------
B|-----------------------------------------------------------------------------------------------------------------------------------------
G|-----------------------------------------------------------------------------------------------------------------------------------------
D|--------------------------------------------------------------------------------------------------------------------------------------0--
A|--0--------0--------8--------8--------10----------10----------7--------8--------5--------5--------8--------8--------7--------7--------0--
E|-----0--0-----0--0-----8--8-----8--8------10--10------10--10-----7--7-----8--8-----5--5-----5--5-----8--8-----8--8-----7--7-----7--7--0--



E|--0-----0-----2-----3-----2-----2-----3-----5-----3-----3-----5-----3-----2-----2-----3-----2-----0--
B|-----0-----0-----0-----0-----0-----0-----0-----0-----0-----0-----0-----0-----0-----0-----0-----0--0--
G|-----------------------------------------------------------------------------------------------------
D|-----------------------------------------------------------------------------------------------------
A|-----------------------------------------------------------------------------------------------------
E|-----------------------------------------------------------------------------------------------------



E|-----------------------------------------------------------------------
B|-----------------------------------------------------------------------
G|-----------------------------------------------------------------------
D|-----------------------------------------------------------------------
A|--9--9--9--10--10--10--7--7--7--9--9--9--5--5--5--7--7--7--4--4--4--2--
E|-----------------------------------------------------------------------



E|-----------------------------------------------------------------------------
B|-----------------------------------------------------------------------------
G|--11--11--11--12--12--12--9--9--9--11--11--11--7--7--7--9--9--9--6--6--6--4--
D|--------------------------------------------------------------9--------------
A|--9---9---9---10--10--10--7--7--7--9---9---9---5--5--5--7--7--7--4--4--4--2--
E|------9----------------------------------------------------------------------
http://www.guitartabcreator.com
Guitar Tab Creator is intended to store guitar tab created through the tool. It currently does not support in-line text editing. Any text you place in here will be lost. If you need to comment on your tab, please use the "Tab Notes" section located below.