ahem

(/) Slide Up  (\) Slide Down  (h) Hammer On  (p) Pull Off  (b) Bend (r) Release (v) Vibrato


E|----------------------------------------------------------
B|------------------5---------------------------------------
G|--4\7----7--5--7-----7--5--7--5---------------------------
D|---------------------------------5----5-----5--5--5\7--7--
A|-----------------------------------------7----------------
E|----------------------------------------------------------



E|-----------------------------------------------------------
B|------------------5----------------------------------------
G|--4\7----7--5--7-----7--5--7--5----------------------------
D|---------------------------------5-------5----5\7--5--5\4--
A|--------------------------------------7--------------------
E|-----------------------------------------------------------



E|----------------------------------------------------------
B|------------------6--5------------------5--------------10b
G|--4\7----7--5--7--------7--5--5\4----------7--5--4--------
D|-------------------------------------5--------------7-----
A|----------------------------------------------------------
E|----------------------------------------------------------
http://www.guitartabcreator.com
Guitar Tab Creator is intended to store guitar tab created through the tool. It currently does not support in-line text editing. Any text you place in here will be lost. If you need to comment on your tab, please use the "Tab Notes" section located below.