Kelly_In_Am_(Arpeggios_to_End)

(/) Slide Up  (\) Slide Down  (h) Hammer On  (p) Pull Off  (b) Bend (r) Release (v) Vibrato


E|--5--------8--7--8/12--8------8---------10\5-----------5-----------5--------5/8--7-----------------
B|-----5--------------------10-----10-----------6-----6-----6-----6-----6-------------9h10--9--------
G|--------5----------------------------9-----------7-----------7-----------7-------------------9-----
D|----------------------------------------0----------------------------------------------------------
A|--0------------------------------------------------------------------------------------------------
E|------------------------------------------------------------------------------------------0--------



E|--------------------12----------------------12--8------8--------------------------------------------
B|-----10/13--12--13------12--------------12---------10-----10-----10-------5-------1-----------------
G|----------------------------13------13------------------------9------9\5-----5\2-----2-----2--------
D|--9-----------------------------14------------------------------------------------------2-----2-----
A|--------------------------------------------0-------------------------------------------------------
E|----------------------------------------------------------------------------------------------------



E|--------------------5----7--8--8/10--7--10/12--12--12\10--10--10--10\8--7h8p7h8p7--8--7------
B|--------------------5------------------------------------------------------------------------
G|--------------------5------------------------------------------------------------------------
D|--------------------7------------------------------------------------------------------------
A|--2--2h3p2p0--------7------------------------------------------------------------------------
E|------------------3/5----------0-------------------------------------------------------------



E|--5/8--7--5------------------------------------------------------------------------------
B|-------------8--6--5---------------------------------------------------------------------
G|----------------------7--5--7/9h10\7--7/9--9\5--5/7--7--4--5\1--2------------------------
D|-------------------------------------------------------------------2--3------------------
A|--0----------------------------------------------------------------------2--3--2---------
E|--------------------------------------------------------------------------------------0--



E|--0--5--5/8--8/12--------
B|--1----------------------
G|--2----------------------
D|--2----------------------
A|--0----------------------
E|-------------------------
http://www.guitartabcreator.com
Guitar Tab Creator is intended to store guitar tab created through the tool. It currently does not support in-line text editing. Any text you place in here will be lost. If you need to comment on your tab, please use the "Tab Notes" section located below.